ISO-10303-21;
HEADER;
/* Generated by software containing ST-Developer
 * from STEP Tools, Inc. (www.steptools.com) 
 */

FILE_DESCRIPTION(
/* description */ (''),
/* implementation_level */ '2;1');

FILE_NAME(
/* name */ '/Users/mike/Downloads/Camber Block Original Public v8.step',

/* time_stamp */ '2021-03-28T19:41:44-07:00',
/* author */ (''),
/* organization */ (''),
/* preprocessor_version */ 'ST-DEVELOPER v18.1',
/* originating_system */ 'Autodesk Translation Framework v9.10.0.1330',

/* authorisation */ '');

FILE_SCHEMA (('AUTOMOTIVE_DESIGN { 1 0 10303 214 3 1 1 }'));
ENDSEC;

DATA;
#10=MECHANICAL_DESIGN_GEOMETRIC_PRESENTATION_REPRESENTATION('',(#13),#653);
#11=SHAPE_REPRESENTATION_RELATIONSHIP('SRR','None',#663,#12);
#12=ADVANCED_BREP_SHAPE_REPRESENTATION('',(#14),#652);
#13=STYLED_ITEM('',(#672),#14);
#14=MANIFOLD_SOLID_BREP('Camber Block Slice',#381);
#15=FACE_BOUND('',#79,.T.);
#16=FACE_BOUND('',#80,.T.);
#17=FACE_BOUND('',#81,.T.);
#18=FACE_BOUND('',#82,.T.);
#19=FACE_BOUND('',#83,.T.);
#20=FACE_BOUND('',#84,.T.);
#21=FACE_BOUND('',#85,.T.);
#22=FACE_BOUND('',#86,.T.);
#23=FACE_BOUND('',#87,.T.);
#24=FACE_BOUND('',#88,.T.);
#25=FACE_BOUND('',#89,.T.);
#26=FACE_BOUND('',#90,.T.);
#27=FACE_BOUND('',#92,.T.);
#28=FACE_BOUND('',#93,.T.);
#29=FACE_BOUND('',#94,.T.);
#30=FACE_BOUND('',#95,.T.);
#31=FACE_BOUND('',#96,.T.);
#32=FACE_BOUND('',#97,.T.);
#33=FACE_BOUND('',#98,.T.);
#34=FACE_BOUND('',#99,.T.);
#35=FACE_BOUND('',#100,.T.);
#36=FACE_BOUND('',#101,.T.);
#37=FACE_BOUND('',#102,.T.);
#38=FACE_BOUND('',#103,.T.);
#39=PLANE('',#431);
#40=PLANE('',#435);
#41=PLANE('',#436);
#42=PLANE('',#437);
#43=PLANE('',#438);
#44=FACE_OUTER_BOUND('',#62,.T.);
#45=FACE_OUTER_BOUND('',#63,.T.);
#46=FACE_OUTER_BOUND('',#64,.T.);
#47=FACE_OUTER_BOUND('',#65,.T.);
#48=FACE_OUTER_BOUND('',#66,.T.);
#49=FACE_OUTER_BOUND('',#67,.T.);
#50=FACE_OUTER_BOUND('',#68,.T.);
#51=FACE_OUTER_BOUND('',#69,.T.);
#52=FACE_OUTER_BOUND('',#70,.T.);
#53=FACE_OUTER_BOUND('',#71,.T.);
#54=FACE_OUTER_BOUND('',#72,.T.);
#55=FACE_OUTER_BOUND('',#73,.T.);
#56=FACE_OUTER_BOUND('',#74,.T.);
#57=FACE_OUTER_BOUND('',#75,.T.);
#58=FACE_OUTER_BOUND('',#76,.T.);
#59=FACE_OUTER_BOUND('',#77,.T.);
#60=FACE_OUTER_BOUND('',#78,.T.);
#61=FACE_OUTER_BOUND('',#91,.T.);
#62=EDGE_LOOP('',(#254,#255,#256,#257));
#63=EDGE_LOOP('',(#258,#259,#260,#261));
#64=EDGE_LOOP('',(#262,#263,#264,#265));
#65=EDGE_LOOP('',(#266,#267,#268,#269));
#66=EDGE_LOOP('',(#270,#271,#272,#273));
#67=EDGE_LOOP('',(#274,#275,#276,#277));
#68=EDGE_LOOP('',(#278,#279,#280,#281));
#69=EDGE_LOOP('',(#282,#283,#284,#285));
#70=EDGE_LOOP('',(#286,#287,#288,#289));
#71=EDGE_LOOP('',(#290,#291,#292,#293));
#72=EDGE_LOOP('',(#294,#295,#296,#297));
#73=EDGE_LOOP('',(#298,#299,#300,#301));
#74=EDGE_LOOP('',(#302,#303,#304,#305));
#75=EDGE_LOOP('',(#306,#307,#308,#309));
#76=EDGE_LOOP('',(#310,#311,#312,#313));
#77=EDGE_LOOP('',(#314,#315,#316,#317));
#78=EDGE_LOOP('',(#318,#319,#320,#321));
#79=EDGE_LOOP('',(#322));
#80=EDGE_LOOP('',(#323));
#81=EDGE_LOOP('',(#324));
#82=EDGE_LOOP('',(#325));
#83=EDGE_LOOP('',(#326));
#84=EDGE_LOOP('',(#327));
#85=EDGE_LOOP('',(#328));
#86=EDGE_LOOP('',(#329));
#87=EDGE_LOOP('',(#330));
#88=EDGE_LOOP('',(#331));
#89=EDGE_LOOP('',(#332));
#90=EDGE_LOOP('',(#333));
#91=EDGE_LOOP('',(#334,#335,#336,#337));
#92=EDGE_LOOP('',(#338));
#93=EDGE_LOOP('',(#339));
#94=EDGE_LOOP('',(#340));
#95=EDGE_LOOP('',(#341));
#96=EDGE_LOOP('',(#342));
#97=EDGE_LOOP('',(#343));
#98=EDGE_LOOP('',(#344));
#99=EDGE_LOOP('',(#345));
#100=EDGE_LOOP('',(#346));
#101=EDGE_LOOP('',(#347));
#102=EDGE_LOOP('',(#348));
#103=EDGE_LOOP('',(#349));
#104=LINE('',#556,#126);
#105=LINE('',#562,#127);
#106=LINE('',#568,#128);
#107=LINE('',#574,#129);
#108=LINE('',#580,#130);
#109=LINE('',#586,#131);
#110=LINE('',#592,#132);
#111=LINE('',#598,#133);
#112=LINE('',#604,#134);
#113=LINE('',#610,#135);
#114=LINE('',#616,#136);
#115=LINE('',#622,#137);
#116=LINE('',#627,#138);
#117=LINE('',#629,#139);
#118=LINE('',#631,#140);
#119=LINE('',#632,#141);
#120=LINE('',#638,#142);
#121=LINE('',#641,#143);
#122=LINE('',#643,#144);
#123=LINE('',#644,#145);
#124=LINE('',#646,#146);
#125=LINE('',#647,#147);
#126=VECTOR('',#445,0.250000000000002);
#127=VECTOR('',#452,0.249999999999996);
#128=VECTOR('',#459,0.249999999999996);
#129=VECTOR('',#466,0.249999999999996);
#130=VECTOR('',#473,0.249999999999996);
#131=VECTOR('',#480,0.25);
#132=VECTOR('',#487,0.249999999999999);
#133=VECTOR('',#494,0.250000000000001);
#134=VECTOR('',#501,0.25);
#135=VECTOR('',#508,0.249999999999999);
#136=VECTOR('',#515,0.250000000000002);
#137=VECTOR('',#522,0.249999999999996);
#138=VECTOR('',#527,0.393700787401575);
#139=VECTOR('',#528,0.393700787401575);
#140=VECTOR('',#529,0.393700787401575);
#141=VECTOR('',#530,0.393700787401575);
#142=VECTOR('',#537,0.393700787401575);
#143=VECTOR('',#540,0.393700787401575);
#144=VECTOR('',#541,0.393700787401575);
#145=VECTOR('',#542,0.393700787401575);
#146=VECTOR('',#545,0.393700787401575);
#147=VECTOR('',#546,0.393700787401575);
#148=CIRCLE('',#396,0.250000000000002);
#149=CIRCLE('',#397,0.250000000000002);
#150=CIRCLE('',#399,0.249999999999996);
#151=CIRCLE('',#400,0.249999999999996);
#152=CIRCLE('',#402,0.249999999999996);
#153=CIRCLE('',#403,0.249999999999996);
#154=CIRCLE('',#405,0.249999999999996);
#155=CIRCLE('',#406,0.249999999999996);
#156=CIRCLE('',#408,0.249999999999996);
#157=CIRCLE('',#409,0.249999999999996);
#158=CIRCLE('',#411,0.25);
#159=CIRCLE('',#412,0.25);
#160=CIRCLE('',#414,0.249999999999999);
#161=CIRCLE('',#415,0.249999999999999);
#162=CIRCLE('',#417,0.250000000000001);
#163=CIRCLE('',#418,0.250000000000001);
#164=CIRCLE('',#420,0.25);
#165=CIRCLE('',#421,0.25);
#166=CIRCLE('',#423,0.249999999999999);
#167=CIRCLE('',#424,0.249999999999999);
#168=CIRCLE('',#426,0.250000000000002);
#169=CIRCLE('',#427,0.250000000000002);
#170=CIRCLE('',#429,0.249999999999996);
#171=CIRCLE('',#430,0.249999999999996);
#172=CIRCLE('',#433,492.125984251968);
#173=CIRCLE('',#434,492.125984251968);
#174=VERTEX_POINT('',#553);
#175=VERTEX_POINT('',#555);
#176=VERTEX_POINT('',#559);
#177=VERTEX_POINT('',#561);
#178=VERTEX_POINT('',#565);
#179=VERTEX_POINT('',#567);
#180=VERTEX_POINT('',#571);
#181=VERTEX_POINT('',#573);
#182=VERTEX_POINT('',#577);
#183=VERTEX_POINT('',#579);
#184=VERTEX_POINT('',#583);
#185=VERTEX_POINT('',#585);
#186=VERTEX_POINT('',#589);
#187=VERTEX_POINT('',#591);
#188=VERTEX_POINT('',#595);
#189=VERTEX_POINT('',#597);
#190=VERTEX_POINT('',#601);
#191=VERTEX_POINT('',#603);
#192=VERTEX_POINT('',#607);
#193=VERTEX_POINT('',#609);
#194=VERTEX_POINT('',#613);
#195=VERTEX_POINT('',#615);
#196=VERTEX_POINT('',#619);
#197=VERTEX_POINT('',#621);
#198=VERTEX_POINT('',#625);
#199=VERTEX_POINT('',#626);
#200=VERTEX_POINT('',#628);
#201=VERTEX_POINT('',#630);
#202=VERTEX_POINT('',#634);
#203=VERTEX_POINT('',#636);
#204=VERTEX_POINT('',#640);
#205=VERTEX_POINT('',#642);
#206=EDGE_CURVE('',#174,#174,#148,.T.);
#207=EDGE_CURVE('',#174,#175,#104,.T.);
#208=EDGE_CURVE('',#175,#175,#149,.T.);
#209=EDGE_CURVE('',#176,#176,#150,.T.);
#210=EDGE_CURVE('',#176,#177,#105,.T.);
#211=EDGE_CURVE('',#177,#177,#151,.T.);
#212=EDGE_CURVE('',#178,#178,#152,.T.);
#213=EDGE_CURVE('',#178,#179,#106,.T.);
#214=EDGE_CURVE('',#179,#179,#153,.T.);
#215=EDGE_CURVE('',#180,#180,#154,.T.);
#216=EDGE_CURVE('',#180,#181,#107,.T.);
#217=EDGE_CURVE('',#181,#181,#155,.T.);
#218=EDGE_CURVE('',#182,#182,#156,.T.);
#219=EDGE_CURVE('',#182,#183,#108,.T.);
#220=EDGE_CURVE('',#183,#183,#157,.T.);
#221=EDGE_CURVE('',#184,#184,#158,.T.);
#222=EDGE_CURVE('',#184,#185,#109,.T.);
#223=EDGE_CURVE('',#185,#185,#159,.T.);
#224=EDGE_CURVE('',#186,#186,#160,.T.);
#225=EDGE_CURVE('',#186,#187,#110,.T.);
#226=EDGE_CURVE('',#187,#187,#161,.T.);
#227=EDGE_CURVE('',#188,#188,#162,.T.);
#228=EDGE_CURVE('',#188,#189,#111,.T.);
#229=EDGE_CURVE('',#189,#189,#163,.T.);
#230=EDGE_CURVE('',#190,#190,#164,.T.);
#231=EDGE_CURVE('',#190,#191,#112,.T.);
#232=EDGE_CURVE('',#191,#191,#165,.T.);
#233=EDGE_CURVE('',#192,#192,#166,.T.);
#234=EDGE_CURVE('',#192,#193,#113,.T.);
#235=EDGE_CURVE('',#193,#193,#167,.T.);
#236=EDGE_CURVE('',#194,#194,#168,.T.);
#237=EDGE_CURVE('',#194,#195,#114,.T.);
#238=EDGE_CURVE('',#195,#195,#169,.T.);
#239=EDGE_CURVE('',#196,#196,#170,.T.);
#240=EDGE_CURVE('',#196,#197,#115,.T.);
#241=EDGE_CURVE('',#197,#197,#171,.T.);
#242=EDGE_CURVE('',#198,#199,#116,.T.);
#243=EDGE_CURVE('',#198,#200,#117,.T.);
#244=EDGE_CURVE('',#201,#200,#118,.T.);
#245=EDGE_CURVE('',#199,#201,#119,.T.);
#246=EDGE_CURVE('',#202,#199,#172,.T.);
#247=EDGE_CURVE('',#203,#201,#173,.T.);
#248=EDGE_CURVE('',#202,#203,#120,.T.);
#249=EDGE_CURVE('',#204,#202,#121,.T.);
#250=EDGE_CURVE('',#205,#203,#122,.T.);
#251=EDGE_CURVE('',#204,#205,#123,.T.);
#252=EDGE_CURVE('',#198,#204,#124,.T.);
#253=EDGE_CURVE('',#200,#205,#125,.T.);
#254=ORIENTED_EDGE('',*,*,#206,.F.);
#255=ORIENTED_EDGE('',*,*,#207,.T.);
#256=ORIENTED_EDGE('',*,*,#208,.T.);
#257=ORIENTED_EDGE('',*,*,#207,.F.);
#258=ORIENTED_EDGE('',*,*,#209,.F.);
#259=ORIENTED_EDGE('',*,*,#210,.T.);
#260=ORIENTED_EDGE('',*,*,#211,.T.);
#261=ORIENTED_EDGE('',*,*,#210,.F.);
#262=ORIENTED_EDGE('',*,*,#212,.F.);
#263=ORIENTED_EDGE('',*,*,#213,.T.);
#264=ORIENTED_EDGE('',*,*,#214,.T.);
#265=ORIENTED_EDGE('',*,*,#213,.F.);
#266=ORIENTED_EDGE('',*,*,#215,.F.);
#267=ORIENTED_EDGE('',*,*,#216,.T.);
#268=ORIENTED_EDGE('',*,*,#217,.T.);
#269=ORIENTED_EDGE('',*,*,#216,.F.);
#270=ORIENTED_EDGE('',*,*,#218,.F.);
#271=ORIENTED_EDGE('',*,*,#219,.T.);
#272=ORIENTED_EDGE('',*,*,#220,.T.);
#273=ORIENTED_EDGE('',*,*,#219,.F.);
#274=ORIENTED_EDGE('',*,*,#221,.F.);
#275=ORIENTED_EDGE('',*,*,#222,.T.);
#276=ORIENTED_EDGE('',*,*,#223,.T.);
#277=ORIENTED_EDGE('',*,*,#222,.F.);
#278=ORIENTED_EDGE('',*,*,#224,.F.);
#279=ORIENTED_EDGE('',*,*,#225,.T.);
#280=ORIENTED_EDGE('',*,*,#226,.T.);
#281=ORIENTED_EDGE('',*,*,#225,.F.);
#282=ORIENTED_EDGE('',*,*,#227,.F.);
#283=ORIENTED_EDGE('',*,*,#228,.T.);
#284=ORIENTED_EDGE('',*,*,#229,.T.);
#285=ORIENTED_EDGE('',*,*,#228,.F.);
#286=ORIENTED_EDGE('',*,*,#230,.F.);
#287=ORIENTED_EDGE('',*,*,#231,.T.);
#288=ORIENTED_EDGE('',*,*,#232,.T.);
#289=ORIENTED_EDGE('',*,*,#231,.F.);
#290=ORIENTED_EDGE('',*,*,#233,.F.);
#291=ORIENTED_EDGE('',*,*,#234,.T.);
#292=ORIENTED_EDGE('',*,*,#235,.T.);
#293=ORIENTED_EDGE('',*,*,#234,.F.);
#294=ORIENTED_EDGE('',*,*,#236,.F.);
#295=ORIENTED_EDGE('',*,*,#237,.T.);
#296=ORIENTED_EDGE('',*,*,#238,.T.);
#297=ORIENTED_EDGE('',*,*,#237,.F.);
#298=ORIENTED_EDGE('',*,*,#239,.F.);
#299=ORIENTED_EDGE('',*,*,#240,.T.);
#300=ORIENTED_EDGE('',*,*,#241,.T.);
#301=ORIENTED_EDGE('',*,*,#240,.F.);
#302=ORIENTED_EDGE('',*,*,#242,.F.);
#303=ORIENTED_EDGE('',*,*,#243,.T.);
#304=ORIENTED_EDGE('',*,*,#244,.F.);
#305=ORIENTED_EDGE('',*,*,#245,.F.);
#306=ORIENTED_EDGE('',*,*,#246,.T.);
#307=ORIENTED_EDGE('',*,*,#245,.T.);
#308=ORIENTED_EDGE('',*,*,#247,.F.);
#309=ORIENTED_EDGE('',*,*,#248,.F.);
#310=ORIENTED_EDGE('',*,*,#249,.T.);
#311=ORIENTED_EDGE('',*,*,#248,.T.);
#312=ORIENTED_EDGE('',*,*,#250,.F.);
#313=ORIENTED_EDGE('',*,*,#251,.F.);
#314=ORIENTED_EDGE('',*,*,#252,.T.);
#315=ORIENTED_EDGE('',*,*,#251,.T.);
#316=ORIENTED_EDGE('',*,*,#253,.F.);
#317=ORIENTED_EDGE('',*,*,#243,.F.);
#318=ORIENTED_EDGE('',*,*,#253,.T.);
#319=ORIENTED_EDGE('',*,*,#250,.T.);
#320=ORIENTED_EDGE('',*,*,#247,.T.);
#321=ORIENTED_EDGE('',*,*,#244,.T.);
#322=ORIENTED_EDGE('',*,*,#239,.T.);
#323=ORIENTED_EDGE('',*,*,#236,.T.);
#324=ORIENTED_EDGE('',*,*,#233,.T.);
#325=ORIENTED_EDGE('',*,*,#230,.T.);
#326=ORIENTED_EDGE('',*,*,#227,.T.);
#327=ORIENTED_EDGE('',*,*,#224,.T.);
#328=ORIENTED_EDGE('',*,*,#221,.T.);
#329=ORIENTED_EDGE('',*,*,#218,.T.);
#330=ORIENTED_EDGE('',*,*,#215,.T.);
#331=ORIENTED_EDGE('',*,*,#212,.T.);
#332=ORIENTED_EDGE('',*,*,#209,.T.);
#333=ORIENTED_EDGE('',*,*,#206,.T.);
#334=ORIENTED_EDGE('',*,*,#252,.F.);
#335=ORIENTED_EDGE('',*,*,#242,.T.);
#336=ORIENTED_EDGE('',*,*,#246,.F.);
#337=ORIENTED_EDGE('',*,*,#249,.F.);
#338=ORIENTED_EDGE('',*,*,#241,.F.);
#339=ORIENTED_EDGE('',*,*,#238,.F.);
#340=ORIENTED_EDGE('',*,*,#235,.F.);
#341=ORIENTED_EDGE('',*,*,#232,.F.);
#342=ORIENTED_EDGE('',*,*,#229,.F.);
#343=ORIENTED_EDGE('',*,*,#226,.F.);
#344=ORIENTED_EDGE('',*,*,#223,.F.);
#345=ORIENTED_EDGE('',*,*,#220,.F.);
#346=ORIENTED_EDGE('',*,*,#217,.F.);
#347=ORIENTED_EDGE('',*,*,#214,.F.);
#348=ORIENTED_EDGE('',*,*,#211,.F.);
#349=ORIENTED_EDGE('',*,*,#208,.F.);
#350=CYLINDRICAL_SURFACE('',#395,0.250000000000002);
#351=CYLINDRICAL_SURFACE('',#398,0.249999999999996);
#352=CYLINDRICAL_SURFACE('',#401,0.249999999999996);
#353=CYLINDRICAL_SURFACE('',#404,0.249999999999996);
#354=CYLINDRICAL_SURFACE('',#407,0.249999999999996);
#355=CYLINDRICAL_SURFACE('',#410,0.25);
#356=CYLINDRICAL_SURFACE('',#413,0.249999999999999);
#357=CYLINDRICAL_SURFACE('',#416,0.250000000000001);
#358=CYLINDRICAL_SURFACE('',#419,0.25);
#359=CYLINDRICAL_SURFACE('',#422,0.249999999999999);
#360=CYLINDRICAL_SURFACE('',#425,0.250000000000002);
#361=CYLINDRICAL_SURFACE('',#428,0.249999999999996);
#362=CYLINDRICAL_SURFACE('',#432,492.125984251968);
#363=ADVANCED_FACE('',(#44),#350,.F.);
#364=ADVANCED_FACE('',(#45),#351,.F.);
#365=ADVANCED_FACE('',(#46),#352,.F.);
#366=ADVANCED_FACE('',(#47),#353,.F.);
#367=ADVANCED_FACE('',(#48),#354,.F.);
#368=ADVANCED_FACE('',(#49),#355,.F.);
#369=ADVANCED_FACE('',(#50),#356,.F.);
#370=ADVANCED_FACE('',(#51),#357,.F.);
#371=ADVANCED_FACE('',(#52),#358,.F.);
#372=ADVANCED_FACE('',(#53),#359,.F.);
#373=ADVANCED_FACE('',(#54),#360,.F.);
#374=ADVANCED_FACE('',(#55),#361,.F.);
#375=ADVANCED_FACE('',(#56),#39,.T.);
#376=ADVANCED_FACE('',(#57),#362,.T.);
#377=ADVANCED_FACE('',(#58),#40,.T.);
#378=ADVANCED_FACE('',(#59),#41,.T.);
#379=ADVANCED_FACE('',(#60,#15,#16,#17,#18,#19,#20,#21,#22,#23,#24,#25,
#26),#42,.T.);
#380=ADVANCED_FACE('',(#61,#27,#28,#29,#30,#31,#32,#33,#34,#35,#36,#37,
#38),#43,.F.);
#381=CLOSED_SHELL('',(#363,#364,#365,#366,#367,#368,#369,#370,#371,#372,
#373,#374,#375,#376,#377,#378,#379,#380));
#382=DERIVED_UNIT_ELEMENT(#384,1.);
#383=DERIVED_UNIT_ELEMENT(#657,-3.);
#384=(
MASS_UNIT()
NAMED_UNIT(*)
SI_UNIT(.KILO.,.GRAM.)
);
#385=DERIVED_UNIT((#382,#383));
#386=MEASURE_REPRESENTATION_ITEM('density measure',
POSITIVE_RATIO_MEASURE(7850.),#385);
#387=PROPERTY_DEFINITION_REPRESENTATION(#392,#389);
#388=PROPERTY_DEFINITION_REPRESENTATION(#393,#390);
#389=REPRESENTATION('material name',(#391),#652);
#390=REPRESENTATION('density',(#386),#652);
#391=DESCRIPTIVE_REPRESENTATION_ITEM('Steel','Steel');
#392=PROPERTY_DEFINITION('material property','material name',#665);
#393=PROPERTY_DEFINITION('material property','density of part',#665);
#394=AXIS2_PLACEMENT_3D('placement',#551,#439,#440);
#395=AXIS2_PLACEMENT_3D('',#552,#441,#442);
#396=AXIS2_PLACEMENT_3D('',#554,#443,#444);
#397=AXIS2_PLACEMENT_3D('',#557,#446,#447);
#398=AXIS2_PLACEMENT_3D('',#558,#448,#449);
#399=AXIS2_PLACEMENT_3D('',#560,#450,#451);
#400=AXIS2_PLACEMENT_3D('',#563,#453,#454);
#401=AXIS2_PLACEMENT_3D('',#564,#455,#456);
#402=AXIS2_PLACEMENT_3D('',#566,#457,#458);
#403=AXIS2_PLACEMENT_3D('',#569,#460,#461);
#404=AXIS2_PLACEMENT_3D('',#570,#462,#463);
#405=AXIS2_PLACEMENT_3D('',#572,#464,#465);
#406=AXIS2_PLACEMENT_3D('',#575,#467,#468);
#407=AXIS2_PLACEMENT_3D('',#576,#469,#470);
#408=AXIS2_PLACEMENT_3D('',#578,#471,#472);
#409=AXIS2_PLACEMENT_3D('',#581,#474,#475);
#410=AXIS2_PLACEMENT_3D('',#582,#476,#477);
#411=AXIS2_PLACEMENT_3D('',#584,#478,#479);
#412=AXIS2_PLACEMENT_3D('',#587,#481,#482);
#413=AXIS2_PLACEMENT_3D('',#588,#483,#484);
#414=AXIS2_PLACEMENT_3D('',#590,#485,#486);
#415=AXIS2_PLACEMENT_3D('',#593,#488,#489);
#416=AXIS2_PLACEMENT_3D('',#594,#490,#491);
#417=AXIS2_PLACEMENT_3D('',#596,#492,#493);
#418=AXIS2_PLACEMENT_3D('',#599,#495,#496);
#419=AXIS2_PLACEMENT_3D('',#600,#497,#498);
#420=AXIS2_PLACEMENT_3D('',#602,#499,#500);
#421=AXIS2_PLACEMENT_3D('',#605,#502,#503);
#422=AXIS2_PLACEMENT_3D('',#606,#504,#505);
#423=AXIS2_PLACEMENT_3D('',#608,#506,#507);
#424=AXIS2_PLACEMENT_3D('',#611,#509,#510);
#425=AXIS2_PLACEMENT_3D('',#612,#511,#512);
#426=AXIS2_PLACEMENT_3D('',#614,#513,#514);
#427=AXIS2_PLACEMENT_3D('',#617,#516,#517);
#428=AXIS2_PLACEMENT_3D('',#618,#518,#519);
#429=AXIS2_PLACEMENT_3D('',#620,#520,#521);
#430=AXIS2_PLACEMENT_3D('',#623,#523,#524);
#431=AXIS2_PLACEMENT_3D('',#624,#525,#526);
#432=AXIS2_PLACEMENT_3D('',#633,#531,#532);
#433=AXIS2_PLACEMENT_3D('',#635,#533,#534);
#434=AXIS2_PLACEMENT_3D('',#637,#535,#536);
#435=AXIS2_PLACEMENT_3D('',#639,#538,#539);
#436=AXIS2_PLACEMENT_3D('',#645,#543,#544);
#437=AXIS2_PLACEMENT_3D('',#648,#547,#548);
#438=AXIS2_PLACEMENT_3D('',#649,#549,#550);
#439=DIRECTION('axis',(0.,0.,1.));
#440=DIRECTION('refdir',(1.,0.,0.));
#441=DIRECTION('center_axis',(0.,0.,1.));
#442=DIRECTION('ref_axis',(1.,0.,0.));
#443=DIRECTION('center_axis',(0.,0.,-1.));
#444=DIRECTION('ref_axis',(1.,0.,0.));
#445=DIRECTION('',(0.,0.,-1.));
#446=DIRECTION('center_axis',(0.,0.,-1.));
#447=DIRECTION('ref_axis',(1.,0.,0.));
#448=DIRECTION('center_axis',(0.,0.,1.));
#449=DIRECTION('ref_axis',(1.,0.,0.));
#450=DIRECTION('center_axis',(0.,0.,-1.));
#451=DIRECTION('ref_axis',(1.,0.,0.));
#452=DIRECTION('',(0.,0.,-1.));
#453=DIRECTION('center_axis',(0.,0.,-1.));
#454=DIRECTION('ref_axis',(1.,0.,0.));
#455=DIRECTION('center_axis',(0.,0.,1.));
#456=DIRECTION('ref_axis',(1.,0.,0.));
#457=DIRECTION('center_axis',(0.,0.,-1.));
#458=DIRECTION('ref_axis',(1.,0.,0.));
#459=DIRECTION('',(0.,0.,-1.));
#460=DIRECTION('center_axis',(0.,0.,-1.));
#461=DIRECTION('ref_axis',(1.,0.,0.));
#462=DIRECTION('center_axis',(0.,0.,1.));
#463=DIRECTION('ref_axis',(1.,0.,0.));
#464=DIRECTION('center_axis',(0.,0.,-1.));
#465=DIRECTION('ref_axis',(1.,0.,0.));
#466=DIRECTION('',(0.,0.,-1.));
#467=DIRECTION('center_axis',(0.,0.,-1.));
#468=DIRECTION('ref_axis',(1.,0.,0.));
#469=DIRECTION('center_axis',(0.,0.,1.));
#470=DIRECTION('ref_axis',(1.,0.,0.));
#471=DIRECTION('center_axis',(0.,0.,-1.));
#472=DIRECTION('ref_axis',(1.,0.,0.));
#473=DIRECTION('',(0.,0.,-1.));
#474=DIRECTION('center_axis',(0.,0.,-1.));
#475=DIRECTION('ref_axis',(1.,0.,0.));
#476=DIRECTION('center_axis',(0.,0.,1.));
#477=DIRECTION('ref_axis',(1.,0.,0.));
#478=DIRECTION('center_axis',(0.,0.,-1.));
#479=DIRECTION('ref_axis',(1.,0.,0.));
#480=DIRECTION('',(0.,0.,-1.));
#481=DIRECTION('center_axis',(0.,0.,-1.));
#482=DIRECTION('ref_axis',(1.,0.,0.));
#483=DIRECTION('center_axis',(0.,0.,1.));
#484=DIRECTION('ref_axis',(1.,0.,0.));
#485=DIRECTION('center_axis',(0.,0.,-1.));
#486=DIRECTION('ref_axis',(1.,0.,0.));
#487=DIRECTION('',(0.,0.,-1.));
#488=DIRECTION('center_axis',(0.,0.,-1.));
#489=DIRECTION('ref_axis',(1.,0.,0.));
#490=DIRECTION('center_axis',(0.,0.,1.));
#491=DIRECTION('ref_axis',(1.,0.,0.));
#492=DIRECTION('center_axis',(0.,0.,-1.));
#493=DIRECTION('ref_axis',(1.,0.,0.));
#494=DIRECTION('',(0.,0.,-1.));
#495=DIRECTION('center_axis',(0.,0.,-1.));
#496=DIRECTION('ref_axis',(1.,0.,0.));
#497=DIRECTION('center_axis',(0.,0.,1.));
#498=DIRECTION('ref_axis',(1.,0.,0.));
#499=DIRECTION('center_axis',(0.,0.,-1.));
#500=DIRECTION('ref_axis',(1.,0.,0.));
#501=DIRECTION('',(0.,0.,-1.));
#502=DIRECTION('center_axis',(0.,0.,-1.));
#503=DIRECTION('ref_axis',(1.,0.,0.));
#504=DIRECTION('center_axis',(0.,0.,1.));
#505=DIRECTION('ref_axis',(1.,0.,0.));
#506=DIRECTION('center_axis',(0.,0.,-1.));
#507=DIRECTION('ref_axis',(1.,0.,0.));
#508=DIRECTION('',(0.,0.,-1.));
#509=DIRECTION('center_axis',(0.,0.,-1.));
#510=DIRECTION('ref_axis',(1.,0.,0.));
#511=DIRECTION('center_axis',(0.,0.,1.));
#512=DIRECTION('ref_axis',(1.,0.,0.));
#513=DIRECTION('center_axis',(0.,0.,-1.));
#514=DIRECTION('ref_axis',(1.,0.,0.));
#515=DIRECTION('',(0.,0.,-1.));
#516=DIRECTION('center_axis',(0.,0.,-1.));
#517=DIRECTION('ref_axis',(1.,0.,0.));
#518=DIRECTION('center_axis',(0.,0.,1.));
#519=DIRECTION('ref_axis',(1.,0.,0.));
#520=DIRECTION('center_axis',(0.,0.,-1.));
#521=DIRECTION('ref_axis',(1.,0.,0.));
#522=DIRECTION('',(0.,0.,-1.));
#523=DIRECTION('center_axis',(0.,0.,-1.));
#524=DIRECTION('ref_axis',(1.,0.,0.));
#525=DIRECTION('center_axis',(-1.,6.122214082188E-17,0.));
#526=DIRECTION('ref_axis',(-6.122214082188E-17,-1.,0.));
#527=DIRECTION('',(6.122214082188E-17,1.,0.));
#528=DIRECTION('',(0.,0.,1.));
#529=DIRECTION('',(-6.122214082188E-17,-1.,0.));
#530=DIRECTION('',(0.,0.,1.));
#531=DIRECTION('center_axis',(0.,0.,1.));
#532=DIRECTION('ref_axis',(0.0853439999999961,0.996351545220863,0.));
#533=DIRECTION('center_axis',(0.,0.,1.));
#534=DIRECTION('ref_axis',(0.0853439999999961,0.996351545220863,0.));
#535=DIRECTION('center_axis',(0.,0.,1.));
#536=DIRECTION('ref_axis',(0.0853439999999961,0.996351545220863,0.));
#537=DIRECTION('',(0.,0.,1.));
#538=DIRECTION('center_axis',(1.,8.64400414763272E-13,0.));
#539=DIRECTION('ref_axis',(-8.64400414763272E-13,1.,0.));
#540=DIRECTION('',(-8.64400414763272E-13,1.,0.));
#541=DIRECTION('',(-8.64400414763272E-13,1.,0.));
#542=DIRECTION('',(0.,0.,1.));
#543=DIRECTION('center_axis',(0.,-1.,0.));
#544=DIRECTION('ref_axis',(1.,0.,0.));
#545=DIRECTION('',(1.,0.,0.));
#546=DIRECTION('',(1.,0.,0.));
#547=DIRECTION('center_axis',(0.,0.,1.));
#548=DIRECTION('ref_axis',(1.,0.,0.));
#549=DIRECTION('center_axis',(0.,0.,1.));
#550=DIRECTION('ref_axis',(1.,0.,0.));
#551=CARTESIAN_POINT('',(0.,0.,0.));
#552=CARTESIAN_POINT('Origin',(34.,2.86519261748857,0.));
#553=CARTESIAN_POINT('',(33.75,2.86519261748857,0.75));
#554=CARTESIAN_POINT('Origin',(34.,2.86519261748857,0.75));
#555=CARTESIAN_POINT('',(33.75,2.86519261748857,0.));
#556=CARTESIAN_POINT('',(33.75,2.86519261748857,0.));
#557=CARTESIAN_POINT('Origin',(34.,2.86519261748857,0.));
#558=CARTESIAN_POINT('Origin',(77.9999999999991,2.23825845934116,0.));
#559=CARTESIAN_POINT('',(77.7499999999991,2.23825845934116,0.75));
#560=CARTESIAN_POINT('Origin',(77.9999999999991,2.23825845934116,0.75));
#561=CARTESIAN_POINT('',(77.7499999999991,2.23825845934116,0.));
#562=CARTESIAN_POINT('',(77.7499999999991,2.23825845934116,0.));
#563=CARTESIAN_POINT('Origin',(77.9999999999991,2.23825845934116,0.));
#564=CARTESIAN_POINT('Origin',(69.9999999999989,2.49885110529194,0.));
#565=CARTESIAN_POINT('',(69.7499999999989,2.49885110529194,0.75));
#566=CARTESIAN_POINT('Origin',(69.9999999999989,2.49885110529194,0.75));
#567=CARTESIAN_POINT('',(69.7499999999989,2.49885110529194,0.));
#568=CARTESIAN_POINT('',(69.7499999999989,2.49885110529194,0.));
#569=CARTESIAN_POINT('Origin',(69.9999999999989,2.49885110529194,0.));
#570=CARTESIAN_POINT('Origin',(81.9999999999991,2.0834988593438,0.));
#571=CARTESIAN_POINT('',(81.7499999999991,2.0834988593438,0.75));
#572=CARTESIAN_POINT('Origin',(81.9999999999991,2.0834988593438,0.75));
#573=CARTESIAN_POINT('',(81.7499999999991,2.0834988593438,0.));
#574=CARTESIAN_POINT('',(81.7499999999991,2.0834988593438,0.));
#575=CARTESIAN_POINT('Origin',(81.9999999999991,2.0834988593438,0.));
#576=CARTESIAN_POINT('Origin',(73.999999999999,2.37670690952875,0.));
#577=CARTESIAN_POINT('',(73.749999999999,2.37670690952875,0.75));
#578=CARTESIAN_POINT('Origin',(73.999999999999,2.37670690952875,0.75));
#579=CARTESIAN_POINT('',(73.749999999999,2.37670690952875,0.));
#580=CARTESIAN_POINT('',(73.749999999999,2.37670690952875,0.));
#581=CARTESIAN_POINT('Origin',(73.999999999999,2.37670690952875,0.));
#582=CARTESIAN_POINT('Origin',(6.,2.23825845932552,0.));
#583=CARTESIAN_POINT('',(5.75,2.23825845932552,0.75));
#584=CARTESIAN_POINT('Origin',(6.,2.23825845932552,0.75));
#585=CARTESIAN_POINT('',(5.75,2.23825845932552,0.));
#586=CARTESIAN_POINT('',(5.75,2.23825845932552,0.));
#587=CARTESIAN_POINT('Origin',(6.,2.23825845932552,0.));
#588=CARTESIAN_POINT('Origin',(14.,2.49885110527978,0.));
#589=CARTESIAN_POINT('',(13.75,2.49885110527978,0.75));
#590=CARTESIAN_POINT('Origin',(14.,2.49885110527978,0.75));
#591=CARTESIAN_POINT('',(13.75,2.49885110527978,0.));
#592=CARTESIAN_POINT('',(13.75,2.49885110527978,0.));
#593=CARTESIAN_POINT('Origin',(14.,2.49885110527978,0.));
#594=CARTESIAN_POINT('Origin',(9.99999999999999,2.37670690951485,0.));
#595=CARTESIAN_POINT('',(9.74999999999999,2.37670690951485,0.75));
#596=CARTESIAN_POINT('Origin',(9.99999999999999,2.37670690951485,0.75));
#597=CARTESIAN_POINT('',(9.74999999999999,2.37670690951485,0.));
#598=CARTESIAN_POINT('',(9.74999999999999,2.37670690951485,0.));
#599=CARTESIAN_POINT('Origin',(9.99999999999999,2.37670690951485,0.));
#600=CARTESIAN_POINT('Origin',(2.,2.08349885932642,0.));
#601=CARTESIAN_POINT('',(1.75,2.08349885932642,0.75));
#602=CARTESIAN_POINT('Origin',(2.,2.08349885932642,0.75));
#603=CARTESIAN_POINT('',(1.75,2.08349885932642,0.));
#604=CARTESIAN_POINT('',(1.75,2.08349885932642,0.));
#605=CARTESIAN_POINT('Origin',(2.,2.08349885932642,0.));
#606=CARTESIAN_POINT('Origin',(18.,2.60469712674981,0.));
#607=CARTESIAN_POINT('',(17.75,2.60469712674981,0.75));
#608=CARTESIAN_POINT('Origin',(18.,2.60469712674981,0.75));
#609=CARTESIAN_POINT('',(17.75,2.60469712674981,0.));
#610=CARTESIAN_POINT('',(17.75,2.60469712674981,0.));
#611=CARTESIAN_POINT('Origin',(18.,2.60469712674981,0.));
#612=CARTESIAN_POINT('Origin',(49.9999999999982,2.86519261749387,0.));
#613=CARTESIAN_POINT('',(49.7499999999982,2.86519261749387,0.75));
#614=CARTESIAN_POINT('Origin',(49.9999999999982,2.86519261749387,0.75));
#615=CARTESIAN_POINT('',(49.7499999999982,2.86519261749387,0.));
#616=CARTESIAN_POINT('',(49.7499999999982,2.86519261749387,0.));
#617=CARTESIAN_POINT('Origin',(49.9999999999982,2.86519261749387,0.));
#618=CARTESIAN_POINT('Origin',(65.9999999999983,2.60469712676517,0.));
#619=CARTESIAN_POINT('',(65.7499999999983,2.60469712676517,0.75));
#620=CARTESIAN_POINT('Origin',(65.9999999999983,2.60469712676517,0.75));
#621=CARTESIAN_POINT('',(65.7499999999983,2.60469712676517,0.));
#622=CARTESIAN_POINT('',(65.7499999999983,2.60469712676517,0.));
#623=CARTESIAN_POINT('Origin',(65.9999999999983,2.60469712676517,0.));
#624=CARTESIAN_POINT('Origin',(2.44888563287515E-16,3.99999999999991,0.));
#625=CARTESIAN_POINT('',(0.,0.,0.));
#626=CARTESIAN_POINT('',(5.59482469102441E-14,3.99999999999991,0.));
#627=CARTESIAN_POINT('',(0.,0.,0.));
#628=CARTESIAN_POINT('',(0.,0.,0.75));
#629=CARTESIAN_POINT('',(0.,0.,0.));
#630=CARTESIAN_POINT('',(5.59482469102441E-14,3.99999999999991,0.75));
#631=CARTESIAN_POINT('',(0.,0.,0.75));
#632=CARTESIAN_POINT('',(5.59482469102441E-14,3.99999999999991,0.));
#633=CARTESIAN_POINT('Origin',(41.9999999999985,-486.330484852787,0.));
#634=CARTESIAN_POINT('',(83.9999999999965,3.99999999999994,0.));
#635=CARTESIAN_POINT('Origin',(41.9999999999985,-486.330484852787,0.));
#636=CARTESIAN_POINT('',(83.9999999999965,3.99999999999994,0.75));
#637=CARTESIAN_POINT('Origin',(41.9999999999985,-486.330484852787,0.75));
#638=CARTESIAN_POINT('',(83.9999999999965,3.99999999999994,0.));
#639=CARTESIAN_POINT('Origin',(84.,0.,0.));
#640=CARTESIAN_POINT('',(84.,0.,0.));
#641=CARTESIAN_POINT('',(84.,0.,0.));
#642=CARTESIAN_POINT('',(84.,0.,0.75));
#643=CARTESIAN_POINT('',(84.,0.,0.75));
#644=CARTESIAN_POINT('',(84.,0.,0.));
#645=CARTESIAN_POINT('Origin',(0.,0.,0.));
#646=CARTESIAN_POINT('',(0.,0.,0.));
#647=CARTESIAN_POINT('',(0.,0.,0.75));
#648=CARTESIAN_POINT('Origin',(42.,2.89774969959088,0.75));
#649=CARTESIAN_POINT('Origin',(42.,2.89774969959088,0.));
#650=UNCERTAINTY_MEASURE_WITH_UNIT(LENGTH_MEASURE(0.000393700787401575),
#655,'DISTANCE_ACCURACY_VALUE',
'Maximum model space distance between geometric entities at asserted c
onnectivities');
#651=UNCERTAINTY_MEASURE_WITH_UNIT(LENGTH_MEASURE(0.000393700787401575),
#655,'DISTANCE_ACCURACY_VALUE',
'Maximum model space distance between geometric entities at asserted c
onnectivities');
#652=(
GEOMETRIC_REPRESENTATION_CONTEXT(3)
GLOBAL_UNCERTAINTY_ASSIGNED_CONTEXT((#650))
GLOBAL_UNIT_ASSIGNED_CONTEXT((#655,#659,#660))
REPRESENTATION_CONTEXT('','3D')
);
#653=(
GEOMETRIC_REPRESENTATION_CONTEXT(3)
GLOBAL_UNCERTAINTY_ASSIGNED_CONTEXT((#651))
GLOBAL_UNIT_ASSIGNED_CONTEXT((#655,#659,#660))
REPRESENTATION_CONTEXT('','3D')
);
#654=DIMENSIONAL_EXPONENTS(1.,0.,0.,0.,0.,0.,0.);
#655=(
CONVERSION_BASED_UNIT('inch',#658)
LENGTH_UNIT()
NAMED_UNIT(#654)
);
#656=(
LENGTH_UNIT()
NAMED_UNIT(*)
SI_UNIT(.MILLI.,.METRE.)
);
#657=(
LENGTH_UNIT()
NAMED_UNIT(*)
SI_UNIT($,.METRE.)
);
#658=LENGTH_MEASURE_WITH_UNIT(LENGTH_MEASURE(25.4),#656);
#659=(
NAMED_UNIT(*)
PLANE_ANGLE_UNIT()
SI_UNIT($,.RADIAN.)
);
#660=(
NAMED_UNIT(*)
SI_UNIT($,.STERADIAN.)
SOLID_ANGLE_UNIT()
);
#661=SHAPE_DEFINITION_REPRESENTATION(#662,#663);
#662=PRODUCT_DEFINITION_SHAPE('',$,#665);
#663=SHAPE_REPRESENTATION('',(#394),#652);
#664=PRODUCT_DEFINITION_CONTEXT('part definition',#669,'design');
#665=PRODUCT_DEFINITION('Camber Block Original Public',
'Camber Block Original Public v8',#666,#664);
#666=PRODUCT_DEFINITION_FORMATION('',$,#671);
#667=PRODUCT_RELATED_PRODUCT_CATEGORY('Camber Block Original Public v8',
'Camber Block Original Public v8',(#671));
#668=APPLICATION_PROTOCOL_DEFINITION('international standard',
'automotive_design',2009,#669);
#669=APPLICATION_CONTEXT(
'Core Data for Automotive Mechanical Design Process');
#670=PRODUCT_CONTEXT('part definition',#669,'mechanical');
#671=PRODUCT('Camber Block Original Public',
'Camber Block Original Public v8',$,(#670));
#672=PRESENTATION_STYLE_ASSIGNMENT((#673));
#673=SURFACE_STYLE_USAGE(.BOTH.,#674);
#674=SURFACE_SIDE_STYLE('',(#675));
#675=SURFACE_STYLE_FILL_AREA(#676);
#676=FILL_AREA_STYLE('Steel - Satin',(#677));
#677=FILL_AREA_STYLE_COLOUR('Steel - Satin',#678);
#678=COLOUR_RGB('Steel - Satin',0.627450980392157,0.627450980392157,0.627450980392157);
ENDSEC;
END-ISO-10303-21;
