ISO-10303-21;
HEADER;
/* Generated by software containing ST-Developer
 * from STEP Tools, Inc. (www.steptools.com) 
 */

FILE_DESCRIPTION(
/* description */ (''),
/* implementation_level */ '2;1');

FILE_NAME(
/* name */ '/Users/mike/Downloads/End Block Original #1 Public v4.step',

/* time_stamp */ '2021-03-28T19:41:27-07:00',
/* author */ (''),
/* organization */ (''),
/* preprocessor_version */ 'ST-DEVELOPER v18.1',
/* originating_system */ 'Autodesk Translation Framework v9.10.0.1330',

/* authorisation */ '');

FILE_SCHEMA (('AUTOMOTIVE_DESIGN { 1 0 10303 214 3 1 1 }'));
ENDSEC;

DATA;
#10=MECHANICAL_DESIGN_GEOMETRIC_PRESENTATION_REPRESENTATION('',(#13),#300);
#11=SHAPE_REPRESENTATION_RELATIONSHIP('SRR','None',#307,#12);
#12=ADVANCED_BREP_SHAPE_REPRESENTATION('',(#14),#299);
#13=STYLED_ITEM('',(#316),#14);
#14=MANIFOLD_SOLID_BREP('End Block',#168);
#15=FACE_BOUND('',#40,.T.);
#16=FACE_BOUND('',#41,.T.);
#17=FACE_BOUND('',#43,.T.);
#18=FACE_BOUND('',#44,.T.);
#19=PLANE('',#188);
#20=PLANE('',#192);
#21=PLANE('',#199);
#22=PLANE('',#200);
#23=FACE_OUTER_BOUND('',#32,.T.);
#24=FACE_OUTER_BOUND('',#33,.T.);
#25=FACE_OUTER_BOUND('',#34,.T.);
#26=FACE_OUTER_BOUND('',#35,.T.);
#27=FACE_OUTER_BOUND('',#36,.T.);
#28=FACE_OUTER_BOUND('',#37,.T.);
#29=FACE_OUTER_BOUND('',#38,.T.);
#30=FACE_OUTER_BOUND('',#39,.T.);
#31=FACE_OUTER_BOUND('',#42,.T.);
#32=EDGE_LOOP('',(#112,#113,#114,#115));
#33=EDGE_LOOP('',(#116,#117,#118,#119));
#34=EDGE_LOOP('',(#120,#121,#122,#123));
#35=EDGE_LOOP('',(#124,#125,#126,#127));
#36=EDGE_LOOP('',(#128,#129,#130,#131));
#37=EDGE_LOOP('',(#132,#133,#134,#135));
#38=EDGE_LOOP('',(#136,#137,#138,#139));
#39=EDGE_LOOP('',(#140,#141,#142,#143,#144));
#40=EDGE_LOOP('',(#145));
#41=EDGE_LOOP('',(#146));
#42=EDGE_LOOP('',(#147,#148,#149,#150,#151));
#43=EDGE_LOOP('',(#152));
#44=EDGE_LOOP('',(#153));
#45=LINE('',#257,#56);
#46=LINE('',#263,#57);
#47=LINE('',#268,#58);
#48=LINE('',#270,#59);
#49=LINE('',#272,#60);
#50=LINE('',#273,#61);
#51=LINE('',#279,#62);
#52=LINE('',#282,#63);
#53=LINE('',#284,#64);
#54=LINE('',#285,#65);
#55=LINE('',#291,#66);
#56=VECTOR('',#207,6.35000000000002);
#57=VECTOR('',#214,6.35);
#58=VECTOR('',#219,10.);
#59=VECTOR('',#220,10.);
#60=VECTOR('',#221,10.);
#61=VECTOR('',#222,10.);
#62=VECTOR('',#229,10.);
#63=VECTOR('',#232,10.);
#64=VECTOR('',#233,10.);
#65=VECTOR('',#234,10.);
#66=VECTOR('',#241,10.);
#67=CIRCLE('',#183,6.35000000000002);
#68=CIRCLE('',#184,6.35000000000002);
#69=CIRCLE('',#186,6.35);
#70=CIRCLE('',#187,6.35);
#71=CIRCLE('',#190,12500.0000000002);
#72=CIRCLE('',#191,12500.0000000002);
#73=CIRCLE('',#194,281.7241);
#74=CIRCLE('',#195,281.7241);
#75=CIRCLE('',#197,49.5295868144845);
#76=CIRCLE('',#198,49.5295868144845);
#77=VERTEX_POINT('',#254);
#78=VERTEX_POINT('',#256);
#79=VERTEX_POINT('',#260);
#80=VERTEX_POINT('',#262);
#81=VERTEX_POINT('',#266);
#82=VERTEX_POINT('',#267);
#83=VERTEX_POINT('',#269);
#84=VERTEX_POINT('',#271);
#85=VERTEX_POINT('',#275);
#86=VERTEX_POINT('',#277);
#87=VERTEX_POINT('',#281);
#88=VERTEX_POINT('',#283);
#89=VERTEX_POINT('',#287);
#90=VERTEX_POINT('',#289);
#91=EDGE_CURVE('',#77,#77,#67,.T.);
#92=EDGE_CURVE('',#77,#78,#45,.T.);
#93=EDGE_CURVE('',#78,#78,#68,.T.);
#94=EDGE_CURVE('',#79,#79,#69,.T.);
#95=EDGE_CURVE('',#79,#80,#46,.T.);
#96=EDGE_CURVE('',#80,#80,#70,.T.);
#97=EDGE_CURVE('',#81,#82,#47,.T.);
#98=EDGE_CURVE('',#81,#83,#48,.T.);
#99=EDGE_CURVE('',#84,#83,#49,.T.);
#100=EDGE_CURVE('',#82,#84,#50,.T.);
#101=EDGE_CURVE('',#82,#85,#71,.T.);
#102=EDGE_CURVE('',#86,#84,#72,.T.);
#103=EDGE_CURVE('',#85,#86,#51,.T.);
#104=EDGE_CURVE('',#85,#87,#52,.T.);
#105=EDGE_CURVE('',#88,#86,#53,.T.);
#106=EDGE_CURVE('',#87,#88,#54,.T.);
#107=EDGE_CURVE('',#87,#89,#73,.T.);
#108=EDGE_CURVE('',#90,#88,#74,.T.);
#109=EDGE_CURVE('',#89,#90,#55,.T.);
#110=EDGE_CURVE('',#81,#89,#75,.T.);
#111=EDGE_CURVE('',#83,#90,#76,.T.);
#112=ORIENTED_EDGE('',*,*,#91,.F.);
#113=ORIENTED_EDGE('',*,*,#92,.T.);
#114=ORIENTED_EDGE('',*,*,#93,.T.);
#115=ORIENTED_EDGE('',*,*,#92,.F.);
#116=ORIENTED_EDGE('',*,*,#94,.F.);
#117=ORIENTED_EDGE('',*,*,#95,.T.);
#118=ORIENTED_EDGE('',*,*,#96,.T.);
#119=ORIENTED_EDGE('',*,*,#95,.F.);
#120=ORIENTED_EDGE('',*,*,#97,.F.);
#121=ORIENTED_EDGE('',*,*,#98,.T.);
#122=ORIENTED_EDGE('',*,*,#99,.F.);
#123=ORIENTED_EDGE('',*,*,#100,.F.);
#124=ORIENTED_EDGE('',*,*,#101,.F.);
#125=ORIENTED_EDGE('',*,*,#100,.T.);
#126=ORIENTED_EDGE('',*,*,#102,.F.);
#127=ORIENTED_EDGE('',*,*,#103,.F.);
#128=ORIENTED_EDGE('',*,*,#104,.F.);
#129=ORIENTED_EDGE('',*,*,#103,.T.);
#130=ORIENTED_EDGE('',*,*,#105,.F.);
#131=ORIENTED_EDGE('',*,*,#106,.F.);
#132=ORIENTED_EDGE('',*,*,#107,.F.);
#133=ORIENTED_EDGE('',*,*,#106,.T.);
#134=ORIENTED_EDGE('',*,*,#108,.F.);
#135=ORIENTED_EDGE('',*,*,#109,.F.);
#136=ORIENTED_EDGE('',*,*,#110,.T.);
#137=ORIENTED_EDGE('',*,*,#109,.T.);
#138=ORIENTED_EDGE('',*,*,#111,.F.);
#139=ORIENTED_EDGE('',*,*,#98,.F.);
#140=ORIENTED_EDGE('',*,*,#111,.T.);
#141=ORIENTED_EDGE('',*,*,#108,.T.);
#142=ORIENTED_EDGE('',*,*,#105,.T.);
#143=ORIENTED_EDGE('',*,*,#102,.T.);
#144=ORIENTED_EDGE('',*,*,#99,.T.);
#145=ORIENTED_EDGE('',*,*,#94,.T.);
#146=ORIENTED_EDGE('',*,*,#91,.T.);
#147=ORIENTED_EDGE('',*,*,#110,.F.);
#148=ORIENTED_EDGE('',*,*,#97,.T.);
#149=ORIENTED_EDGE('',*,*,#101,.T.);
#150=ORIENTED_EDGE('',*,*,#104,.T.);
#151=ORIENTED_EDGE('',*,*,#107,.T.);
#152=ORIENTED_EDGE('',*,*,#96,.F.);
#153=ORIENTED_EDGE('',*,*,#93,.F.);
#154=CYLINDRICAL_SURFACE('',#182,6.35000000000002);
#155=CYLINDRICAL_SURFACE('',#185,6.35);
#156=CYLINDRICAL_SURFACE('',#189,12500.0000000002);
#157=CYLINDRICAL_SURFACE('',#193,281.7241);
#158=CYLINDRICAL_SURFACE('',#196,49.5295868144845);
#159=ADVANCED_FACE('',(#23),#154,.F.);
#160=ADVANCED_FACE('',(#24),#155,.F.);
#161=ADVANCED_FACE('',(#25),#19,.T.);
#162=ADVANCED_FACE('',(#26),#156,.F.);
#163=ADVANCED_FACE('',(#27),#20,.T.);
#164=ADVANCED_FACE('',(#28),#157,.F.);
#165=ADVANCED_FACE('',(#29),#158,.T.);
#166=ADVANCED_FACE('',(#30,#15,#16),#21,.T.);
#167=ADVANCED_FACE('',(#31,#17,#18),#22,.F.);
#168=CLOSED_SHELL('',(#159,#160,#161,#162,#163,#164,#165,#166,#167));
#169=DERIVED_UNIT_ELEMENT(#171,1.);
#170=DERIVED_UNIT_ELEMENT(#302,-3.);
#171=(
MASS_UNIT()
NAMED_UNIT(*)
SI_UNIT(.KILO.,.GRAM.)
);
#172=DERIVED_UNIT((#169,#170));
#173=MEASURE_REPRESENTATION_ITEM('density measure',
POSITIVE_RATIO_MEASURE(7850.),#172);
#174=PROPERTY_DEFINITION_REPRESENTATION(#179,#176);
#175=PROPERTY_DEFINITION_REPRESENTATION(#180,#177);
#176=REPRESENTATION('material name',(#178),#299);
#177=REPRESENTATION('density',(#173),#299);
#178=DESCRIPTIVE_REPRESENTATION_ITEM('Steel','Steel');
#179=PROPERTY_DEFINITION('material property','material name',#309);
#180=PROPERTY_DEFINITION('material property','density of part',#309);
#181=AXIS2_PLACEMENT_3D('placement',#252,#201,#202);
#182=AXIS2_PLACEMENT_3D('',#253,#203,#204);
#183=AXIS2_PLACEMENT_3D('',#255,#205,#206);
#184=AXIS2_PLACEMENT_3D('',#258,#208,#209);
#185=AXIS2_PLACEMENT_3D('',#259,#210,#211);
#186=AXIS2_PLACEMENT_3D('',#261,#212,#213);
#187=AXIS2_PLACEMENT_3D('',#264,#215,#216);
#188=AXIS2_PLACEMENT_3D('',#265,#217,#218);
#189=AXIS2_PLACEMENT_3D('',#274,#223,#224);
#190=AXIS2_PLACEMENT_3D('',#276,#225,#226);
#191=AXIS2_PLACEMENT_3D('',#278,#227,#228);
#192=AXIS2_PLACEMENT_3D('',#280,#230,#231);
#193=AXIS2_PLACEMENT_3D('',#286,#235,#236);
#194=AXIS2_PLACEMENT_3D('',#288,#237,#238);
#195=AXIS2_PLACEMENT_3D('',#290,#239,#240);
#196=AXIS2_PLACEMENT_3D('',#292,#242,#243);
#197=AXIS2_PLACEMENT_3D('',#293,#244,#245);
#198=AXIS2_PLACEMENT_3D('',#294,#246,#247);
#199=AXIS2_PLACEMENT_3D('',#295,#248,#249);
#200=AXIS2_PLACEMENT_3D('',#296,#250,#251);
#201=DIRECTION('axis',(0.,0.,1.));
#202=DIRECTION('refdir',(1.,0.,0.));
#203=DIRECTION('center_axis',(0.,0.,1.));
#204=DIRECTION('ref_axis',(1.,0.,0.));
#205=DIRECTION('center_axis',(0.,0.,-1.));
#206=DIRECTION('ref_axis',(1.,0.,0.));
#207=DIRECTION('',(0.,0.,-1.));
#208=DIRECTION('center_axis',(0.,0.,-1.));
#209=DIRECTION('ref_axis',(1.,0.,0.));
#210=DIRECTION('center_axis',(0.,0.,1.));
#211=DIRECTION('ref_axis',(1.,0.,0.));
#212=DIRECTION('center_axis',(0.,0.,-1.));
#213=DIRECTION('ref_axis',(1.,0.,0.));
#214=DIRECTION('',(0.,0.,-1.));
#215=DIRECTION('center_axis',(0.,0.,-1.));
#216=DIRECTION('ref_axis',(1.,0.,0.));
#217=DIRECTION('center_axis',(1.,-1.08672669692402E-15,0.));
#218=DIRECTION('ref_axis',(1.08672669692402E-15,1.,0.));
#219=DIRECTION('',(-1.08672669692402E-15,-1.,0.));
#220=DIRECTION('',(0.,0.,1.));
#221=DIRECTION('',(1.08672669692402E-15,1.,0.));
#222=DIRECTION('',(0.,0.,1.));
#223=DIRECTION('center_axis',(0.,0.,1.));
#224=DIRECTION('ref_axis',(0.0223519999999997,0.999750162838696,0.));
#225=DIRECTION('center_axis',(0.,0.,1.));
#226=DIRECTION('ref_axis',(0.0223519999999997,0.999750162838696,0.));
#227=DIRECTION('center_axis',(0.,0.,-1.));
#228=DIRECTION('ref_axis',(0.0223519999999997,0.999750162838696,0.));
#229=DIRECTION('',(0.,0.,1.));
#230=DIRECTION('center_axis',(-1.,0.,0.));
#231=DIRECTION('ref_axis',(0.,-1.,0.));
#232=DIRECTION('',(0.,1.,0.));
#233=DIRECTION('',(0.,-1.,0.));
#234=DIRECTION('',(0.,0.,1.));
#235=DIRECTION('center_axis',(0.,0.,1.));
#236=DIRECTION('ref_axis',(-4.14049091358479E-18,-1.,0.));
#237=DIRECTION('center_axis',(0.,0.,1.));
#238=DIRECTION('ref_axis',(-4.14049091358479E-18,-1.,0.));
#239=DIRECTION('center_axis',(0.,0.,-1.));
#240=DIRECTION('ref_axis',(-4.14049091358479E-18,-1.,0.));
#241=DIRECTION('',(0.,0.,1.));
#242=DIRECTION('center_axis',(0.,0.,1.));
#243=DIRECTION('ref_axis',(1.,0.,0.));
#244=DIRECTION('center_axis',(0.,0.,1.));
#245=DIRECTION('ref_axis',(1.,0.,0.));
#246=DIRECTION('center_axis',(0.,0.,1.));
#247=DIRECTION('ref_axis',(1.,0.,0.));
#248=DIRECTION('center_axis',(0.,0.,1.));
#249=DIRECTION('ref_axis',(1.,0.,0.));
#250=DIRECTION('center_axis',(0.,0.,1.));
#251=DIRECTION('ref_axis',(1.,0.,0.));
#252=CARTESIAN_POINT('',(0.,0.,0.));
#253=CARTESIAN_POINT('Origin',(228.6,53.7591,0.));
#254=CARTESIAN_POINT('',(222.25,53.7591,19.05));
#255=CARTESIAN_POINT('Origin',(228.6,53.7591,19.05));
#256=CARTESIAN_POINT('',(222.25,53.7591,0.));
#257=CARTESIAN_POINT('',(222.25,53.7591,0.));
#258=CARTESIAN_POINT('Origin',(228.6,53.7591,0.));
#259=CARTESIAN_POINT('Origin',(127.,22.225,0.));
#260=CARTESIAN_POINT('',(120.65,22.225,19.05));
#261=CARTESIAN_POINT('Origin',(127.,22.225,19.05));
#262=CARTESIAN_POINT('',(120.65,22.225,0.));
#263=CARTESIAN_POINT('',(120.65,22.225,0.));
#264=CARTESIAN_POINT('Origin',(127.,22.225,0.));
#265=CARTESIAN_POINT('Origin',(279.4,-3.12296451629663,0.));
#266=CARTESIAN_POINT('',(279.4,62.2607918385707,0.));
#267=CARTESIAN_POINT('',(279.4,-3.12296451629663,0.));
#268=CARTESIAN_POINT('',(279.4,62.2607918385707,0.));
#269=CARTESIAN_POINT('',(279.4,62.2607918385707,19.05));
#270=CARTESIAN_POINT('',(279.4,62.2607918385707,0.));
#271=CARTESIAN_POINT('',(279.4,-3.12296451629663,19.05));
#272=CARTESIAN_POINT('',(279.4,62.2607918385707,19.05));
#273=CARTESIAN_POINT('',(279.4,-3.12296451629663,0.));
#274=CARTESIAN_POINT('Origin',(0.,-12500.0000000002,0.));
#275=CARTESIAN_POINT('',(1.11199938146456E-11,-1.40443212615082E-12,0.));
#276=CARTESIAN_POINT('Origin',(0.,-12500.0000000002,0.));
#277=CARTESIAN_POINT('',(1.11199938146456E-11,-1.4033219031262E-12,19.05));
#278=CARTESIAN_POINT('Origin',(0.,-12500.0000000002,19.05));
#279=CARTESIAN_POINT('',(1.11199938146456E-11,-1.40443212615082E-12,0.));
#280=CARTESIAN_POINT('Origin',(0.,19.05,0.));
#281=CARTESIAN_POINT('',(0.,19.05,0.));
#282=CARTESIAN_POINT('',(0.,0.,0.));
#283=CARTESIAN_POINT('',(0.,19.05,19.05));
#284=CARTESIAN_POINT('',(0.,0.,19.05));
#285=CARTESIAN_POINT('',(0.,19.05,0.));
#286=CARTESIAN_POINT('Origin',(1.16647607618785E-15,300.7741,0.));
#287=CARTESIAN_POINT('',(195.499817357763,97.9236872967197,0.));
#288=CARTESIAN_POINT('Origin',(1.16647607618785E-15,300.7741,0.));
#289=CARTESIAN_POINT('',(195.499817357763,97.9236872967197,19.05));
#290=CARTESIAN_POINT('Origin',(1.16647607618785E-15,300.7741,19.05));
#291=CARTESIAN_POINT('',(195.499817357763,97.9236872967197,0.));
#292=CARTESIAN_POINT('Origin',(229.870413185516,62.2607918385707,0.));
#293=CARTESIAN_POINT('Origin',(229.870413185516,62.2607918385707,0.));
#294=CARTESIAN_POINT('Origin',(229.870413185516,62.2607918385707,19.05));
#295=CARTESIAN_POINT('Origin',(139.7,54.3337070683793,19.05));
#296=CARTESIAN_POINT('Origin',(139.7,54.3337070683793,0.));
#297=UNCERTAINTY_MEASURE_WITH_UNIT(LENGTH_MEASURE(0.01),#301,
'DISTANCE_ACCURACY_VALUE',
'Maximum model space distance between geometric entities at asserted c
onnectivities');
#298=UNCERTAINTY_MEASURE_WITH_UNIT(LENGTH_MEASURE(0.01),#301,
'DISTANCE_ACCURACY_VALUE',
'Maximum model space distance between geometric entities at asserted c
onnectivities');
#299=(
GEOMETRIC_REPRESENTATION_CONTEXT(3)
GLOBAL_UNCERTAINTY_ASSIGNED_CONTEXT((#297))
GLOBAL_UNIT_ASSIGNED_CONTEXT((#301,#303,#304))
REPRESENTATION_CONTEXT('','3D')
);
#300=(
GEOMETRIC_REPRESENTATION_CONTEXT(3)
GLOBAL_UNCERTAINTY_ASSIGNED_CONTEXT((#298))
GLOBAL_UNIT_ASSIGNED_CONTEXT((#301,#303,#304))
REPRESENTATION_CONTEXT('','3D')
);
#301=(
LENGTH_UNIT()
NAMED_UNIT(*)
SI_UNIT(.MILLI.,.METRE.)
);
#302=(
LENGTH_UNIT()
NAMED_UNIT(*)
SI_UNIT($,.METRE.)
);
#303=(
NAMED_UNIT(*)
PLANE_ANGLE_UNIT()
SI_UNIT($,.RADIAN.)
);
#304=(
NAMED_UNIT(*)
SI_UNIT($,.STERADIAN.)
SOLID_ANGLE_UNIT()
);
#305=SHAPE_DEFINITION_REPRESENTATION(#306,#307);
#306=PRODUCT_DEFINITION_SHAPE('',$,#309);
#307=SHAPE_REPRESENTATION('',(#181),#299);
#308=PRODUCT_DEFINITION_CONTEXT('part definition',#313,'design');
#309=PRODUCT_DEFINITION('End Block Original #1 Public',
'End Block Original #1 Public v4',#310,#308);
#310=PRODUCT_DEFINITION_FORMATION('',$,#315);
#311=PRODUCT_RELATED_PRODUCT_CATEGORY('End Block Original #1 Public v4',
'End Block Original #1 Public v4',(#315));
#312=APPLICATION_PROTOCOL_DEFINITION('international standard',
'automotive_design',2009,#313);
#313=APPLICATION_CONTEXT(
'Core Data for Automotive Mechanical Design Process');
#314=PRODUCT_CONTEXT('part definition',#313,'mechanical');
#315=PRODUCT('End Block Original #1 Public',
'End Block Original #1 Public v4',$,(#314));
#316=PRESENTATION_STYLE_ASSIGNMENT((#317));
#317=SURFACE_STYLE_USAGE(.BOTH.,#318);
#318=SURFACE_SIDE_STYLE('',(#319));
#319=SURFACE_STYLE_FILL_AREA(#320);
#320=FILL_AREA_STYLE('Steel - Satin',(#321));
#321=FILL_AREA_STYLE_COLOUR('Steel - Satin',#322);
#322=COLOUR_RGB('Steel - Satin',0.627450980392157,0.627450980392157,0.627450980392157);
ENDSEC;
END-ISO-10303-21;
